DIYstompboxes.com

DIY Stompboxes => Building your own stompbox => Topic started by: zeppenwolf on September 21, 2003, 09:30:12 PM

Title: The Effect Of The Black Dog...
Post by: zeppenwolf on September 21, 2003, 09:30:12 PM
...by Sir Arthur Conan Doyle.  Just kidding. :)

.  .What is the effect that Jimmy uses for just a couple seconds towards the end of the solo in _Black Dog_?  I've included tab, if it will help refresh your memory.  He just turns it on for a second at 4:29 and 4:36, if you can't 'member for beans, and you have the disc around.

.  .It reminds me of _Shattered_, by the Stones, or the "out of phase" switch on a Peavey guitar.  I guess it does sound like a phaser, but... it's just hard to tell.  For moi.

.  .If someone knows which specific brand/model of whatever it is, that would be cool to know too, of course, but I'm hoping just that it be identified by type.  Thanks.

Eden

Code: [Select]

v 4:25                                                v 4:29
------------------------------------------------------|------------
------------------------------------------------------|------------
------5--------5-------7-------5--------7-------5-----|------------
-5-6-7---5-6-7---5-6-7---5-6-7----5-6-7---5-6-7---5-6-|------------
------------------------------------------------------|-5-4---4----
------------------------------------------------------|-----7--5\3-
                                                       \  Effect /

                                 v 4:36
-----------------------------5---|----------------
---------------------------------|----------------
---------------2------2--4B~-----|----------------
--------2---4-----4--------------|----------------
0----/4--------------------------|-/4-7-5-4-5-----
---------------------------------|------------5\3-
                                   \   Effect   /

Title: Blah Blah
Post by: Bluesgeetar on September 22, 2003, 02:26:19 AM
Leslie!  I read it in a interview by Page.  You can pretty much confirm it by listening to Badge by Cream.  Clapton uses pretty much the same sounding effect.  Pull out that Creams greatest hits CD and give her a listen.  Everyone knows Clapton used a leslie for that!  Clapton didn't lie to people as much a Page did and does on his equipment.
Title: Re: Blah Blah
Post by: zeppenwolf on September 22, 2003, 01:19:25 PM
Quote from: Bluesgeetar
Leslie!  I read it in a interview by Page.

Wow!  Thanks- I would never have come up with that on my own.  I'm on the hunt for those Stinkin' Badges as soon as I log out.
Quote
Clapton didn't lie to people as much a Page did and does on his equipment.

Page does not lie-- he overtracks the truth a bit.

Eden
Title: The Effect Of The Black Dog...
Post by: WGTP on September 22, 2003, 10:49:26 PM
I think I read that the Black Dog sound was 2 tube compressors in series and then into the board.  Maybe a Leslie?  Rick Derringer got a similiar sound on Rock and Roll Hoochie Choo.
Title: nb
Post by: Bluesgeetar on September 23, 2003, 01:18:00 AM
That was the interview where Page talked about his acoustic sound, I guess.  I know Page got his acoustic sound from running two RCA BA-6a limiting amplifiers in a series into the board.  Engineers and producers have joked all over about Page lugging and dragging those 2 giant boat anchor units around.  But that is how he got that super fat acoustic sound.